下手の横好き世界5 by William Van Hecke

I tried figuring out the bass part for OSCA by Tokyo Jihen

I couldn’t find bass tabs for this song, so I tried to learn it by myself. For reasons I don’t understand, I became able to kind of figure out songs by trial and error. It’s probably pretty wrong, so if you know the right way to do any of these parts, please let me know. 

Edit: Ugh, I can’t convince Vox to display this in a monospace font. Please copy it into a text editor and change the font yourself, I guess.

Edit: Turns out I was a half-step out of tune. Also, Michaela helped me figure out the pre-chorus. Thanks!!

intro:  
--------------------------  
--17-17-17-17-17-17-17-17-  
--------------------------  
0/------------------------  

verse:  
--------------  
--------------  
7-7--7--------  
-------5-5--5-  

pre-chorus:  
---------------9-7-----  
-----6-6--9-9------9---  
-7-7-------------------  
-----------------------  

bit:  
----------------------------------  
------------------------------3---  
4-4-4-4-4-5-5-5-5-5-3-3-3-3-3-----  
----------------------------------  

chorus:  
-----------------  
-2-1-2-1-2-1-----  
-------------2-1-  
-----------------  

then something like:  
-------3-3-------------3-3-------------3-3----  
-3-3-3-----3-3-1-1-3-3-----3-3-1-1-3-3-----3-3  
----------------------------------------------  
----------------------------------------------